  0
SECTION
  2
HEADER
  9
$ACADVER
  1
AC1015
  9
$ACADMAINTVER
 70
     6
  9
$DWGCODEPAGE
  3
ANSI_1254
  9
$INSBASE
 10
0.0
 20
0.0
 30
0.0
  9
$EXTMIN
 10
0.0
 20
0.0
 30
0.0
  9
$EXTMAX
 10
279.4
 20
215.9
 30
0.0
  9
$LIMMIN
 10
0.0
 20
0.0
  9
$LIMMAX
 10
279.4
 20
215.9
  9
$ORTHOMODE
 70
     0
  9
$REGENMODE
 70
     1
  9
$FILLMODE
 70
     1
  9
$QTEXTMODE
 70
     0
  9
$MIRRTEXT
 70
     1
  9
$LTSCALE
 40
1.0
  9
$ATTMODE
 70
     1
  9
$TEXTSIZE
 40
3.5
  9
$TRACEWID
 40
1.0
  9
$TEXTSTYLE
  7
Standard
  9
$CLAYER
  8
0
  9
$CELTYPE
  6
ByLayer
  9
$CECOLOR
 62
   256
  9
$CELTSCALE
 40
1.0
  9
$DISPSILH
 70
     0
  9
$DIMSCALE
 40
1.0
  9
$DIMASZ
 40
3.5
  9
$DIMEXO
 40
1.0
  9
$DIMDLI
 40
3.75
  9
$DIMRND
 40
0.0
  9
$DIMDLE
 40
0.0
  9
$DIMEXE
 40
1.0
  9
$DIMTP
 40
0.0
  9
$DIMTM
 40
0.0
  9
$DIMTXT
 40
3.5
  9
$DIMCEN
 40
2.5
  9
$DIMTSZ
 40
0.0
  9
$DIMTOL
 70
     0
  9
$DIMLIM
 70
     0
  9
$DIMTIH
 70
     1
  9
$DIMTOH
 70
     1
  9
$DIMSE1
 70
     0
  9
$DIMSE2
 70
     0
  9
$DIMTAD
 70
     1
  9
$DIMZIN
 70
     0
  9
$DIMBLK
  1

  9
$DIMASO
 70
     1
  9
$DIMSHO
 70
     1
  9
$DIMPOST
  1

  9
$DIMAPOST
  1

  9
$DIMALT
 70
     0
  9
$DIMALTD
 70
     3
  9
$DIMALTF
 40
0.0393700787
  9
$DIMLFAC
 40
1.0
  9
$DIMTOFL
 70
     1
  9
$DIMTVP
 40
0.0
  9
$DIMTIX
 70
     0
  9
$DIMSOXD
 70
     0
  9
$DIMSAH
 70
     0
  9
$DIMBLK1
  1

  9
$DIMBLK2
  1

  9
$DIMSTYLE
  2
ISO-25
  9
$DIMCLRD
 70
     0
  9
$DIMCLRE
 70
     0
  9
$DIMCLRT
 70
     0
  9
$DIMTFAC
 40
1.0
  9
$DIMGAP
 40
1.524
  9
$DIMJUST
 70
     0
  9
$DIMSD1
 70
     0
  9
$DIMSD2
 70
     0
  9
$DIMTOLJ
 70
     0
  9
$DIMTZIN
 70
     0
  9
$DIMALTZ
 70
     0
  9
$DIMALTTZ
 70
     0
  9
$DIMUPT
 70
     0
  9
$DIMDEC
 70
     2
  9
$DIMTDEC
 70
     2
  9
$DIMALTU
 70
     2
  9
$DIMALTTD
 70
     3
  9
$DIMTXSTY
  7
Standard
  9
$DIMAUNIT
 70
     0
  9
$DIMADEC
 70
     2
  9
$DIMALTRND
 40
0.0
  9
$DIMAZIN
 70
     0
  9
$DIMDSEP
 70
    44
  9
$DIMATFIT
 70
     3
  9
$DIMFRAC
 70
     0
  9
$DIMLDRBLK
  1

  9
$DIMLUNIT
 70
     2
  9
$DIMLWD
 70
    -2
  9
$DIMLWE
 70
    -2
  9
$DIMTMOVE
 70
     0
  9
$LUNITS
 70
     2
  9
$LUPREC
 70
     2
  9
$SKETCHINC
 40
1.0
  9
$FILLETRAD
 40
10.0
  9
$AUNITS
 70
     0
  9
$AUPREC
 70
     2
  9
$MENU
  1
.
  9
$ELEVATION
 40
0.0
  9
$PELEVATION
 40
0.0
  9
$THICKNESS
 40
0.0
  9
$LIMCHECK
 70
     0
  9
$CHAMFERA
 40
0.0
  9
$CHAMFERB
 40
0.0
  9
$CHAMFERC
 40
0.0
  9
$CHAMFERD
 40
0.0
  9
$SKPOLY
 70
     0
  9
$TDCREATE
 40
2458985.69911507
  9
$TDUCREATE
 40
2458985.57411507
  9
$TDUPDATE
 40
2458985.699115347
  9
$TDUUPDATE
 40
2458985.574115347
  9
$TDINDWG
 40
0.0000000116
  9
$TDUSRTIMER
 40
0.0000000116
  9
$USRTIMER
 70
     1
  9
$ANGBASE
 50
0.0
  9
$ANGDIR
 70
     0
  9
$PDMODE
 70
     0
  9
$PDSIZE
 40
-1.0
  9
$PLINEWID
 40
0.0
  9
$SPLFRAME
 70
     0
  9
$SPLINETYPE
 70
     6
  9
$SPLINESEGS
 70
     8
  9
$HANDSEED
  5
ED
  9
$SURFTAB1
 70
     6
  9
$SURFTAB2
 70
     6
  9
$SURFTYPE
 70
     6
  9
$SURFU
 70
     6
  9
$SURFV
 70
     6
  9
$UCSBASE
  2

  9
$UCSNAME
  2

  9
$UCSORG
 10
0.0
 20
0.0
 30
0.0
  9
$UCSXDIR
 10
1.0
 20
0.0
 30
0.0
  9
$UCSYDIR
 10
0.0
 20
1.0
 30
0.0
  9
$UCSORTHOREF
  2

  9
$UCSORTHOVIEW
 70
     0
  9
$UCSORGTOP
 10
0.0
 20
0.0
 30
0.0
  9
$UCSORGBOTTOM
 10
0.0
 20
0.0
 30
0.0
  9
$UCSORGLEFT
 10
0.0
 20
0.0
 30
0.0
  9
$UCSORGRIGHT
 10
0.0
 20
0.0
 30
0.0
  9
$UCSORGFRONT
 10
0.0
 20
0.0
 30
0.0
  9
$UCSORGBACK
 10
0.0
 20
0.0
 30
0.0
  9
$PUCSBASE
  2

  9
$PUCSNAME
  2

  9
$PUCSORG
 10
0.0
 20
0.0
 30
0.0
  9
$PUCSXDIR
 10
1.0
 20
0.0
 30
0.0
  9
$PUCSYDIR
 10
0.0
 20
1.0
 30
0.0
  9
$PUCSORTHOREF
  2

  9
$PUCSORTHOVIEW
 70
     0
  9
$PUCSORGTOP
 10
0.0
 20
0.0
 30
0.0
  9
$PUCSORGBOTTOM
 10
0.0
 20
0.0
 30
0.0
  9
$PUCSORGLEFT
 10
0.0
 20
0.0
 30
0.0
  9
$PUCSORGRIGHT
 10
0.0
 20
0.0
 30
0.0
  9
$PUCSORGFRONT
 10
0.0
 20
0.0
 30
0.0
  9
$PUCSORGBACK
 10
0.0
 20
0.0
 30
0.0
  9
$USERI1
 70
     0
  9
$USERI2
 70
     0
  9
$USERI3
 70
     0
  9
$USERI4
 70
     0
  9
$USERI5
 70
     0
  9
$USERR1
 40
0.0
  9
$USERR2
 40
0.0
  9
$USERR3
 40
0.0
  9
$USERR4
 40
0.0
  9
$USERR5
 40
0.0
  9
$WORLDVIEW
 70
     1
  9
$SHADEDGE
 70
     3
  9
$SHADEDIF
 70
    70
  9
$TILEMODE
 70
     1
  9
$MAXACTVP
 70
    64
  9
$PINSBASE
 10
0.0
 20
0.0
 30
0.0
  9
$PLIMCHECK
 70
     0
  9
$PEXTMIN
 10
1.0000000000E+20
 20
1.0000000000E+20
 30
1.0000000000E+20
  9
$PEXTMAX
 10
-1.0000000000E+20
 20
-1.0000000000E+20
 30
-1.0000000000E+20
  9
$PLIMMIN
 10
0.0
 20
0.0
  9
$PLIMMAX
 10
420.0
 20
297.0
  9
$UNITMODE
 70
     0
  9
$VISRETAIN
 70
     1
  9
$PLINEGEN
 70
     0
  9
$PSLTSCALE
 70
     1
  9
$TREEDEPTH
 70
  3020
  9
$CMLSTYLE
  2
Standard
  9
$CMLJUST
 70
     0
  9
$CMLSCALE
 40
20.0
  9
$PROXYGRAPHICS
 70
     1
  9
$MEASUREMENT
 70
     1
  9
$CELWEIGHT
370
    -1
  9
$ENDCAPS
280
     0
  9
$JOINSTYLE
280
     0
  9
$LWDISPLAY
290
     1
  9
$INSUNITS
 70
     4
  9
$HYPERLINKBASE
  1

  9
$STYLESHEET
  1

  9
$XEDIT
290
     1
  9
$CEPSNTYPE
380
     0
  9
$PSTYLEMODE
290
     1
  9
$FINGERPRINTGUID
  2
{d43d6443-8d72-44d8-93f6-b461c9be2a9d}
  9
$VERSIONGUID
  2
{FAEB1C32-E019-11D5-929B-00C0DF256EC4}
  9
$EXTNAMES
290
     1
  9
$PSVPSCALE
 40
0.0
  9
$OLESTARTUP
290
     0
  0
ENDSEC
  0
SECTION
  2
CLASSES
  0
CLASS
  1
ACDBDICTIONARYWDFLT
  2
AcDbDictionaryWithDefault
  3
ObjectDBX Classes
 90
        0
280
     0
281
     0
  0
CLASS
  1
VISUALSTYLE
  2
AcDbVisualStyle
  3
ObjectDBX Classes
 90
     4095
280
     0
281
     0
  0
CLASS
  1
MATERIAL
  2
AcDbMaterial
  3
ObjectDBX Classes
 90
     1153
280
     0
281
     0
  0
CLASS
  1
SCALE
  2
AcDbScale
  3
ObjectDBX Classes
 90
     1153
280
     0
281
     0
  0
CLASS
  1
TABLESTYLE
  2
AcDbTableStyle
  3
ObjectDBX Classes
 90
     4095
280
     0
281
     0
  0
CLASS
  1
MLEADERSTYLE
  2
AcDbMLeaderStyle
  3
ACDB_MLEADERSTYLE_CLASS
 90
     4095
280
     0
281
     0
  0
CLASS
  1
SUN
  2
AcDbSun
  3
SCENEOE
 90
     1153
280
     0
281
     0
  0
CLASS
  1
ACDBPLACEHOLDER
  2
AcDbPlaceHolder
  3
ObjectDBX Classes
 90
        0
280
     0
281
     0
  0
CLASS
  1
LAYOUT
  2
AcDbLayout
  3
ObjectDBX Classes
 90
        0
280
     0
281
     0
  0
ENDSEC
  0
SECTION
  2
TABLES
  0
TABLE
  2
VPORT
  5
8
330
0
100
AcDbSymbolTable
 70
     1
  0
VPORT
  5
29
330
8
100
AcDbSymbolTableRecord
100
AcDbViewportTableRecord
  2
*Active
 70
     0
 10
0.0
 20
0.0
 11
1.0
 21
1.0
 12
139.7
 22
107.95
 13
0.0
 23
0.0
 14
10.0
 24
10.0
 15
10.0
 25
10.0
 16
0.0
 26
0.0
 36
1.0
 17
0.0
 27
0.0
 37
0.0
 40
215.9
 41
1.2941176471
 42
50.0
 43
0.0
 44
0.0
 50
0.0
 51
0.0
 71
     0
 72
  2000
 73
     1
 74
     3
 75
     0
 76
     0
 77
     0
 78
     0
281
     0
 65
     1
110
0.0
120
0.0
130
0.0
111
1.0
121
0.0
131
0.0
112
0.0
122
1.0
132
0.0
 79
     0
146
0.0
  0
ENDTAB
  0
TABLE
  2
LTYPE
  5
5
330
0
100
AcDbSymbolTable
 70
     6
  0
LTYPE
  5
14
330
5
100
AcDbSymbolTableRecord
100
AcDbLinetypeTableRecord
  2
ByBlock
 70
     0
  3

 72
    65
 73
     0
 40
0.0
  0
LTYPE
  5
15
330
5
100
AcDbSymbolTableRecord
100
AcDbLinetypeTableRecord
  2
ByLayer
 70
     0
  3

 72
    65
 73
     0
 40
0.0
  0
LTYPE
  5
16
330
5
100
AcDbSymbolTableRecord
100
AcDbLinetypeTableRecord
  2
Continuous
 70
     0
  3
Solid line
 72
    65
 73
     0
 40
0.0
  0
LTYPE
  5
6E
330
5
100
AcDbSymbolTableRecord
100
AcDbLinetypeTableRecord
  2
HIDDEN
 70
     0
  3
Hidden __ __ __ __ __ __ __ __ __ __ __ __ __ __
 72
    65
 73
     2
 40
1.905
 49
1.27
 74
     0
 49
-0.635
 74
     0
  0
LTYPE
  5
6F
330
5
100
AcDbSymbolTableRecord
100
AcDbLinetypeTableRecord
  2
PHANTOM
 70
     0
  3
Phantom ______  __  __  ______  __  __  ______
 72
    65
 73
     6
 40
12.7
 49
6.35
 74
     0
 49
-1.27
 74
     0
 49
1.27
 74
     0
 49
-1.27
 74
     0
 49
1.27
 74
     0
 49
-1.27
 74
     0
  0
LTYPE
  5
70
330
5
100
AcDbSymbolTableRecord
100
AcDbLinetypeTableRecord
  2
CENTER
 70
     0
  3
Center ____ _ ____ _ ____ _ ____ _ ____ _ ____
 72
    65
 73
     4
 40
10.16
 49
6.35
 74
     0
 49
-1.27
 74
     0
 49
1.27
 74
     0
 49
-1.27
 74
     0
  0
LTYPE
  5
71
330
5
100
AcDbSymbolTableRecord
100
AcDbLinetypeTableRecord
  2
CENTERX2
 70
     0
  3
Center (2x) ________  __  ________  __  _____
 72
    65
 73
     4
 40
20.32
 49
12.7
 74
     0
 49
-2.54
 74
     0
 49
2.54
 74
     0
 49
-2.54
 74
     0
  0
LTYPE
  5
72
330
5
100
AcDbSymbolTableRecord
100
AcDbLinetypeTableRecord
  2
DOT2
 70
     0
  3
Dot (.5x) ........................................
 72
    65
 73
     2
 40
0.635
 49
0.0
 74
     0
 49
-0.635
 74
     0
  0
ENDTAB
  0
TABLE
  2
LAYER
  5
2
330
0
100
AcDbSymbolTable
 70
    17
  0
LAYER
  5
10
330
2
100
AcDbSymbolTableRecord
100
AcDbLayerTableRecord
  2
0
 70
     0
 62
     7
  6
Continuous
370
    -3
390
F
  0
LAYER
  5
73
330
2
100
AcDbSymbolTableRecord
100
AcDbLayerTableRecord
  2
FORMAT
 70
     0
 62
     7
  6
Continuous
370
    -3
390
F
  0
LAYER
  5
74
330
2
100
AcDbSymbolTableRecord
100
AcDbLayerTableRecord
  2
YARDIMCI_GEOMETRI
 70
     0
 62
    -6
  6
Continuous
290
     0
370
    -3
390
F
  0
LAYER
  5
75
330
2
100
AcDbSymbolTableRecord
100
AcDbLayerTableRecord
  2
SAYFA_CERCEVESI
 70
     0
 62
     7
  6
Continuous
370
    25
390
F
  0
LAYER
  5
76
330
2
100
AcDbSymbolTableRecord
100
AcDbLayerTableRecord
  2
ANTET
 70
     0
 62
     7
  6
Continuous
370
    -3
390
F
  0
LAYER
  5
77
330
2
100
AcDbSymbolTableRecord
100
AcDbLayerTableRecord
  2
OLCU
 70
     0
 62
   150
  6
Continuous
370
    -3
390
F
  0
LAYER
  5
78
330
2
100
AcDbSymbolTableRecord
100
AcDbLayerTableRecord
  2
METIN
 70
     0
 62
    96
  6
Continuous
370
    -3
390
F
  0
LAYER
  5
79
330
2
100
AcDbSymbolTableRecord
100
AcDbLayerTableRecord
  2
BALON
 70
     0
 62
     5
  6
Continuous
370
    -3
390
F
  0
LAYER
  5
7A
330
2
100
AcDbSymbolTableRecord
100
AcDbLayerTableRecord
  2
VURGU
 70
     0
 62
     7
  6
Continuous
370
    -3
390
F
  0
LAYER
  5
7B
330
2
100
AcDbSymbolTableRecord
100
AcDbLayerTableRecord
  2
SILIK
 70
     0
 62
     7
  6
Continuous
370
    -3
390
F
  0
LAYER
  5
7C
330
2
100
AcDbSymbolTableRecord
100
AcDbLayerTableRecord
  2
MODEL
 70
     0
 62
     7
  6
Continuous
370
    -3
390
F
  0
LAYER
  5
7D
330
2
100
AcDbSymbolTableRecord
100
AcDbLayerTableRecord
  2
DETAYLANDıRMA
 70
     0
 62
   190
  6
Continuous
370
    -3
390
F
  0
LAYER
  5
7E
330
2
100
AcDbSymbolTableRecord
100
AcDbLayerTableRecord
  2
TOLERANS
 70
     0
 62
   230
  6
Continuous
370
    -3
390
F
  0
LAYER
  5
7F
330
2
100
AcDbSymbolTableRecord
100
AcDbLayerTableRecord
  2
MERKEZ_CIZGILERI
 70
     0
 62
    30
  6
Continuous
370
    -3
390
F
  0
LAYER
  5
80
330
2
100
AcDbSymbolTableRecord
100
AcDbLayerTableRecord
  2
KESIT-DETAY_CIZGILERI
 70
     0
 62
     7
  6
Continuous
370
    -3
390
F
  0
LAYER
  5
81
330
2
100
AcDbSymbolTableRecord
100
AcDbLayerTableRecord
  2
\U+041E\U+0421\U+0415\U+0412\U+042B\U+0415
 70
     0
 62
     7
  6
Continuous
370
    -3
390
F
  0
LAYER
  5
82
330
2
100
AcDbSymbolTableRecord
100
AcDbLayerTableRecord
  2
\U+0412\U+041E\U+0414\U+042F\U+041D\U+042B\U+0415_\U+0417\U+041D\U+0410\U+041A\U+0418
 70
     0
 62
    11
  6
Continuous
370
    -3
390
F
  0
ENDTAB
  0
TABLE
  2
STYLE
  5
3
330
0
100
AcDbSymbolTable
 70
     1
  0
STYLE
  5
11
330
3
100
AcDbSymbolTableRecord
100
AcDbTextStyleTableRecord
  2
Standard
 70
     0
 40
0.0
 41
1.0
 50
0.0
 71
     0
 42
3.5
  3
txt
  4

  0
ENDTAB
  0
TABLE
  2
VIEW
  5
6
330
0
100
AcDbSymbolTable
 70
     0
  0
ENDTAB
  0
TABLE
  2
UCS
  5
7
330
0
100
AcDbSymbolTable
 70
     0
  0
ENDTAB
  0
TABLE
  2
APPID
  5
9
330
0
100
AcDbSymbolTable
 70
     1
  0
APPID
  5
12
330
9
100
AcDbSymbolTableRecord
100
AcDbRegAppTableRecord
  2
ACAD
 70
     0
  0
ENDTAB
  0
TABLE
  2
DIMSTYLE
  5
A
330
0
100
AcDbSymbolTable
 70
     1
100
AcDbDimStyleTable
  0
DIMSTYLE
105
27
330
A
100
AcDbSymbolTableRecord
100
AcDbDimStyleTableRecord
  2
ISO-25
 70
     0
 41
2.5
 42
0.625
 43
3.75
 44
1.25
 73
     0
 74
     0
 77
     1
 78
     8
140
2.5
141
2.5
143
0.0393700787
147
0.625
171
     3
172
     1
178
     0
271
     2
272
     2
274
     3
278
    44
283
     0
284
     8
340
11
  0
ENDTAB
  0
TABLE
  2
BLOCK_RECORD
  5
1
330
0
100
AcDbSymbolTable
 70
     2
  0
BLOCK_RECORD
  5
1F
330
1
100
AcDbSymbolTableRecord
100
AcDbBlockTableRecord
  2
*Model_Space
340
22
  0
BLOCK_RECORD
  5
1B
330
1
100
AcDbSymbolTableRecord
100
AcDbBlockTableRecord
  2
*Paper_Space
340
1E
  0
BLOCK_RECORD
  5
23
330
1
100
AcDbSymbolTableRecord
100
AcDbBlockTableRecord
  2
*Paper_Space0
340
26
  0
BLOCK_RECORD
  5
88
330
1
100
AcDbSymbolTableRecord
100
AcDbBlockTableRecord
  2
SW_CENTERMARKSYMBOL_0
340
0
102
{BLKREFS
331
93
102
}
  0
ENDTAB
  0
ENDSEC
  0
SECTION
  2
BLOCKS
  0
BLOCK
  5
20
330
1F
100
AcDbEntity
  8
0
100
AcDbBlockBegin
  2
*Model_Space
 70
     0
 10
0.0
 20
0.0
 30
0.0
  3
*Model_Space
  1

  0
ENDBLK
  5
21
330
1F
100
AcDbEntity
  8
0
100
AcDbBlockEnd
  0
BLOCK
  5
1C
330
1B
100
AcDbEntity
 67
     1
  8
0
100
AcDbBlockBegin
  2
*Paper_Space
 70
     0
 10
0.0
 20
0.0
 30
0.0
  3
*Paper_Space
  1

  0
ENDBLK
  5
1D
330
1B
100
AcDbEntity
 67
     1
  8
0
100
AcDbBlockEnd
  0
BLOCK
  5
24
330
23
100
AcDbEntity
  8
0
100
AcDbBlockBegin
  2
*Paper_Space0
 70
     0
 10
0.0
 20
0.0
 30
0.0
  3
*Paper_Space0
  1

  0
ENDBLK
  5
25
330
23
100
AcDbEntity
  8
0
100
AcDbBlockEnd
  0
BLOCK
  5
89
330
88
100
AcDbEntity
  8
0
100
AcDbBlockBegin
  2
SW_CENTERMARKSYMBOL_0
 70
     0
 10
0.0
 20
0.0
 30
0.0
  3
SW_CENTERMARKSYMBOL_0
  1

  0
LINE
  5
8B
330
88
100
AcDbEntity
  8
FORMAT
 62
     0
100
AcDbLine
 10
0.0
 20
0.0
 30
0.0
 11
0.0
 21
2.5
 31
0.0
  0
LINE
  5
8C
330
88
100
AcDbEntity
  8
FORMAT
 62
     0
100
AcDbLine
 10
0.0
 20
0.0
 30
0.0
 11
-2.5
 21
0.0
 31
0.0
  0
LINE
  5
8D
330
88
100
AcDbEntity
  8
FORMAT
 62
     0
100
AcDbLine
 10
0.0
 20
0.0
 30
0.0
 11
0.0
 21
-2.5
 31
0.0
  0
LINE
  5
8E
330
88
100
AcDbEntity
  8
FORMAT
 62
     0
100
AcDbLine
 10
0.0
 20
0.0
 30
0.0
 11
2.5
 21
0.0
 31
0.0
  0
LINE
  5
8F
330
88
100
AcDbEntity
  8
FORMAT
 62
     0
100
AcDbLine
 10
0.0
 20
5.0
 30
0.0
 11
0.0
 21
72.5
 31
0.0
  0
LINE
  5
90
330
88
100
AcDbEntity
  8
FORMAT
 62
     0
100
AcDbLine
 10
-5.0
 20
0.0
 30
0.0
 11
-72.5
 21
0.0
 31
0.0
  0
LINE
  5
91
330
88
100
AcDbEntity
  8
FORMAT
 62
     0
100
AcDbLine
 10
0.0
 20
-5.0
 30
0.0
 11
0.0
 21
-72.5
 31
0.0
  0
LINE
  5
92
330
88
100
AcDbEntity
  8
FORMAT
 62
     0
100
AcDbLine
 10
5.0
 20
0.0
 30
0.0
 11
72.5
 21
0.0
 31
0.0
  0
ENDBLK
  5
8A
330
88
100
AcDbEntity
  8
0
100
AcDbBlockEnd
  0
ENDSEC
  0
SECTION
  2
ENTITIES
  0
CIRCLE
  5
83
330
1F
100
AcDbEntity
  8
0
  6
Continuous
 62
     7
370
    25
100
AcDbCircle
 10
139.395004093
 20
107.5851680021
 30
0.0
 40
70.00000000000001
  0
CIRCLE
  5
84
330
1F
100
AcDbEntity
  8
0
  6
Continuous
 62
     7
370
    25
100
AcDbCircle
 10
139.395004093
 20
107.5851680021
 30
0.0
 40
57.30000000000003
  0
CIRCLE
  5
85
330
1F
100
AcDbEntity
  8
0
  6
Continuous
 62
     7
370
    25
100
AcDbCircle
 10
139.395004093
 20
107.5851680021
 30
0.0
 40
57.23483837240572
  0
CIRCLE
  5
86
330
1F
100
AcDbEntity
  8
0
  6
Continuous
 62
     7
370
    25
100
AcDbCircle
 10
139.395004093
 20
107.5851680021
 30
0.0
 40
51.16516162759433
  0
CIRCLE
  5
87
330
1F
100
AcDbEntity
  8
0
  6
Continuous
 62
     7
370
    25
100
AcDbCircle
 10
139.395004093
 20
107.5851680021
 30
0.0
 40
51.10000000000001
  0
INSERT
  5
93
330
1F
100
AcDbEntity
  8
FORMAT
 62
     7
100
AcDbBlockReference
  2
SW_CENTERMARKSYMBOL_0
 10
139.395004093
 20
107.5851680021
 30
0.0
  0
ARC
  5
94
330
1F
100
AcDbEntity
  8
0
  6
Continuous
 62
     7
370
    25
100
AcDbCircle
 10
-122.9847324436
 20
175.5851680021
 30
0.0
 40
2.000000000000057
100
AcDbArc
 50
80.7397784688
 51
90.0
  0
ARC
  5
95
330
1F
100
AcDbEntity
  8
0
  6
Continuous
 62
     7
370
    25
100
AcDbCircle
 10
-122.9847324436
 20
39.5851680021
 30
0.0
 40
2.000000000000021
100
AcDbArc
 50
270.0
 51
279.2602215312
  0
LINE
  5
96
330
1F
100
AcDbEntity
  8
0
  6
Continuous
 62
     7
370
    25
100
AcDbLine
 10
-122.9847328434
 20
177.5851683001
 30
0.0
 11
-214.8227555373
 21
177.5851683001
 31
0.0
  0
LINE
  5
97
330
1F
100
AcDbEntity
  8
0
  6
Continuous
 62
     7
370
    25
100
AcDbLine
 10
-214.8227555373
 20
37.5851677041
 30
0.0
 11
-122.9847328434
 21
37.5851677041
 31
0.0
  0
LINE
  5
98
330
1F
100
AcDbEntity
  8
0
  6
Continuous
 62
     7
370
    25
100
AcDbLine
 10
-122.6628957012
 20
37.611229835
 30
0.0
 11
-76.982622377
 21
45.0591058712
 31
0.0
  0
LINE
  5
99
330
1F
100
AcDbEntity
  8
0
  6
Continuous
 62
     7
370
    25
100
AcDbLine
 10
-76.982622377
 20
170.111230133
 30
0.0
 11
-122.6628957012
 21
177.5591061692
 31
0.0
  0
ARC
  5
9A
330
1F
100
AcDbEntity
  8
0
  6
Continuous
 62
     7
370
    25
100
AcDbCircle
 10
-76.6607842594
 20
172.0851680021
 30
0.0
 40
2.0
100
AcDbArc
 50
260.7397784688
 51
270.0
  0
ARC
  5
9B
330
1F
100
AcDbEntity
  8
0
  6
Continuous
 62
     7
370
    25
100
AcDbCircle
 10
-76.6607842594
 20
43.0851680021
 30
0.0
 40
2.0
100
AcDbArc
 50
90.0
 51
99.2602215312
  0
LINE
  5
9C
330
1F
100
AcDbEntity
  8
0
  6
Continuous
 62
     7
370
    25
100
AcDbLine
 10
10.1772385022
 20
170.0851680021
 30
0.0
 11
-76.6607833722
 21
170.0851680021
 31
0.0
  0
LINE
  5
9D
330
1F
100
AcDbEntity
  8
0
  6
Continuous
 62
     7
370
    25
100
AcDbLine
 10
-76.6607833722
 20
45.0851680021
 30
0.0
 11
10.1772385022
 21
45.0851680021
 31
0.0
  0
LINE
  5
9E
330
1F
100
AcDbEntity
  8
0
  6
Continuous
 62
     7
370
    25
100
AcDbLine
 10
-214.8227555373
 20
177.5851683001
 30
0.0
 11
-214.8227555373
 21
37.5851677041
 31
0.0
  0
LINE
  5
9F
330
1F
100
AcDbEntity
  8
0
  6
Continuous
 62
     7
370
    25
100
AcDbLine
 10
10.1772385022
 20
170.0851680021
 30
0.0
 11
10.1772385022
 21
45.0851680021
 31
0.0
  0
LINE
  5
A0
330
1F
100
AcDbEntity
  8
0
  6
Continuous
 62
     1
370
    25
100
AcDbLine
 10
-122.6628957012
 20
177.5591061692
 30
0.0
 11
-122.6628957012
 21
37.611229835
 31
0.0
  0
LINE
  5
A1
330
1F
100
AcDbEntity
  8
0
  6
Continuous
 62
     1
370
    25
100
AcDbLine
 10
-122.9847328434
 20
177.5851683001
 30
0.0
 11
-122.9847328434
 21
37.5851677041
 31
0.0
  0
LINE
  5
A2
330
1F
100
AcDbEntity
  8
0
  6
Continuous
 62
     1
370
    25
100
AcDbLine
 10
-76.982622377
 20
170.111230133
 30
0.0
 11
-76.982622377
 21
45.0591058712
 31
0.0
  0
LINE
  5
A3
330
1F
100
AcDbEntity
  8
0
  6
Continuous
 62
     1
370
    25
100
AcDbLine
 10
-76.6607833722
 20
170.0851680021
 30
0.0
 11
-76.6607833722
 21
45.0851680021
 31
0.0
  0
ARC
  5
A4
330
1F
100
AcDbEntity
  8
0
  6
Continuous
 62
     7
370
    25
100
AcDbCircle
 10
397.5129537256
 20
39.5851680021
 30
0.0
 40
2.000000000000021
100
AcDbArc
 50
260.7397784688
 51
270.0
  0
ARC
  5
A5
330
1F
100
AcDbEntity
  8
0
  6
Continuous
 62
     7
370
    25
100
AcDbCircle
 10
397.5129537256
 20
175.5851680021
 30
0.0
 40
2.000000000000057
100
AcDbArc
 50
90.0
 51
99.2602215312
  0
LINE
  5
A6
330
1F
100
AcDbEntity
  8
0
  6
Continuous
 62
     7
370
    25
100
AcDbLine
 10
397.5129541254
 20
37.5851677041
 30
0.0
 11
489.3509768193
 21
37.5851677041
 31
0.0
  0
LINE
  5
A7
330
1F
100
AcDbEntity
  8
0
  6
Continuous
 62
     7
370
    25
100
AcDbLine
 10
489.3509768193
 20
177.5851683001
 30
0.0
 11
397.5129541254
 21
177.5851683001
 31
0.0
  0
LINE
  5
A8
330
1F
100
AcDbEntity
  8
0
  6
Continuous
 62
     7
370
    25
100
AcDbLine
 10
397.1911169832
 20
177.5591061692
 30
0.0
 11
351.510843659
 21
170.111230133
 31
0.0
  0
LINE
  5
A9
330
1F
100
AcDbEntity
  8
0
  6
Continuous
 62
     7
370
    25
100
AcDbLine
 10
351.510843659
 20
45.0591058712
 30
0.0
 11
397.1911169832
 21
37.611229835
 31
0.0
  0
ARC
  5
AA
330
1F
100
AcDbEntity
  8
0
  6
Continuous
 62
     7
370
    25
100
AcDbCircle
 10
351.1890055414
 20
43.0851680021
 30
0.0
 40
2.0
100
AcDbArc
 50
80.7397784688
 51
90.0
  0
ARC
  5
AB
330
1F
100
AcDbEntity
  8
0
  6
Continuous
 62
     7
370
    25
100
AcDbCircle
 10
351.1890055414
 20
172.0851680021
 30
0.0
 40
2.0
100
AcDbArc
 50
270.0
 51
279.2602215312
  0
LINE
  5
AC
330
1F
100
AcDbEntity
  8
0
  6
Continuous
 62
     7
370
    25
100
AcDbLine
 10
264.3509827798
 20
45.0851680021
 30
0.0
 11
351.1890046542
 21
45.0851680021
 31
0.0
  0
LINE
  5
AD
330
1F
100
AcDbEntity
  8
0
  6
Continuous
 62
     7
370
    25
100
AcDbLine
 10
351.1890046542
 20
170.0851680021
 30
0.0
 11
264.3509827798
 21
170.0851680021
 31
0.0
  0
LINE
  5
AE
330
1F
100
AcDbEntity
  8
0
  6
Continuous
 62
     7
370
    25
100
AcDbLine
 10
489.3509768193
 20
107.5851680021
 30
0.0
 11
489.3509768193
 21
177.5851683001
 31
0.0
  0
LINE
  5
AF
330
1F
100
AcDbEntity
  8
0
  6
Continuous
 62
     7
370
    25
100
AcDbLine
 10
489.3509768193
 20
37.5851677041
 30
0.0
 11
489.3509768193
 21
107.5851680021
 31
0.0
  0
LINE
  5
B0
330
1F
100
AcDbEntity
  8
0
  6
Continuous
 62
     7
370
    25
100
AcDbLine
 10
264.3509827798
 20
107.5851680021
 30
0.0
 11
264.3509827798
 21
170.0851680021
 31
0.0
  0
LINE
  5
B1
330
1F
100
AcDbEntity
  8
0
  6
Continuous
 62
     7
370
    25
100
AcDbLine
 10
264.3509827798
 20
45.0851680021
 30
0.0
 11
264.3509827798
 21
107.5851680021
 31
0.0
  0
LINE
  5
B2
330
1F
100
AcDbEntity
  8
0
  6
Continuous
 62
     1
370
    25
100
AcDbLine
 10
397.1911169832
 20
107.5851680021
 30
0.0
 11
397.1911169832
 21
177.5591061692
 31
0.0
  0
LINE
  5
B3
330
1F
100
AcDbEntity
  8
0
  6
Continuous
 62
     1
370
    25
100
AcDbLine
 10
397.1911169832
 20
37.611229835
 30
0.0
 11
397.1911169832
 21
107.5851680021
 31
0.0
  0
LINE
  5
B4
330
1F
100
AcDbEntity
  8
0
  6
Continuous
 62
     1
370
    25
100
AcDbLine
 10
397.5129541254
 20
107.5851680021
 30
0.0
 11
397.5129541254
 21
177.5851683001
 31
0.0
  0
LINE
  5
B5
330
1F
100
AcDbEntity
  8
0
  6
Continuous
 62
     1
370
    25
100
AcDbLine
 10
397.5129541254
 20
37.5851677041
 30
0.0
 11
397.5129541254
 21
107.5851680021
 31
0.0
  0
LINE
  5
B6
330
1F
100
AcDbEntity
  8
0
  6
Continuous
 62
     1
370
    25
100
AcDbLine
 10
351.510843659
 20
107.5851680021
 30
0.0
 11
351.510843659
 21
170.111230133
 31
0.0
  0
LINE
  5
B7
330
1F
100
AcDbEntity
  8
0
  6
Continuous
 62
     1
370
    25
100
AcDbLine
 10
351.510843659
 20
45.0591058712
 30
0.0
 11
351.510843659
 21
107.5851680021
 31
0.0
  0
LINE
  5
B8
330
1F
100
AcDbEntity
  8
0
  6
Continuous
 62
     1
370
    25
100
AcDbLine
 10
351.1890046542
 20
107.5851680021
 30
0.0
 11
351.1890046542
 21
170.0851680021
 31
0.0
  0
LINE
  5
B9
330
1F
100
AcDbEntity
  8
0
  6
Continuous
 62
     1
370
    25
100
AcDbLine
 10
351.1890046542
 20
45.0851680021
 30
0.0
 11
351.1890046542
 21
107.5851680021
 31
0.0
  0
ARC
  5
BA
330
1F
100
AcDbEntity
  8
0
  6
Continuous
 62
     7
370
    25
100
AcDbCircle
 10
207.395004093
 20
340.7676881791
 30
0.0
 40
2.000000000000012
100
AcDbArc
 50
350.7397784688
 51
0.0
  0
ARC
  5
BB
330
1F
100
AcDbEntity
  8
0
  6
Continuous
 62
     7
370
    25
100
AcDbCircle
 10
71.395004093
 20
340.7676881791
 30
0.0
 40
2.000000000000028
100
AcDbArc
 50
180.0
 51
189.2602215312
  0
LINE
  5
BC
330
1F
100
AcDbEntity
  8
0
  6
Continuous
 62
     7
370
    25
100
AcDbLine
 10
209.3950043911
 20
340.7676885788
 30
0.0
 11
209.3950043911
 21
432.6057112728
 31
0.0
  0
LINE
  5
BD
330
1F
100
AcDbEntity
  8
0
  6
Continuous
 62
     7
370
    25
100
AcDbLine
 10
69.395003795
 20
432.6057112728
 30
0.0
 11
69.395003795
 21
340.7676885788
 31
0.0
  0
LINE
  5
BE
330
1F
100
AcDbEntity
  8
0
  6
Continuous
 62
     7
370
    25
100
AcDbLine
 10
69.421065926
 20
340.4458514367
 30
0.0
 11
76.8689419621
 21
294.7655781124
 31
0.0
  0
LINE
  5
BF
330
1F
100
AcDbEntity
  8
0
  6
Continuous
 62
     7
370
    25
100
AcDbLine
 10
201.921066224
 20
294.7655781124
 30
0.0
 11
209.3689422601
 21
340.4458514367
 31
0.0
  0
ARC
  5
C0
330
1F
100
AcDbEntity
  8
0
  6
Continuous
 62
     7
370
    25
100
AcDbCircle
 10
203.895004093
 20
294.4437399948
 30
0.0
 40
2.00000000000002
100
AcDbArc
 50
170.7397784688
 51
180.0
  0
ARC
  5
C1
330
1F
100
AcDbEntity
  8
0
  6
Continuous
 62
     7
370
    25
100
AcDbCircle
 10
74.895004093
 20
294.4437399948
 30
0.0
 40
2.0
100
AcDbArc
 50
0.0
 51
9.2602215312
  0
LINE
  5
C2
330
1F
100
AcDbEntity
  8
0
  6
Continuous
 62
     7
370
    25
100
AcDbLine
 10
201.895004093
 20
207.6057172333
 30
0.0
 11
201.895004093
 21
294.4437391077
 31
0.0
  0
LINE
  5
C3
330
1F
100
AcDbEntity
  8
0
  6
Continuous
 62
     7
370
    25
100
AcDbLine
 10
76.895004093
 20
294.4437391077
 30
0.0
 11
76.895004093
 21
207.6057172333
 31
0.0
  0
LINE
  5
C4
330
1F
100
AcDbEntity
  8
0
  6
Continuous
 62
     7
370
    25
100
AcDbLine
 10
209.3950043911
 20
432.6057112728
 30
0.0
 11
69.395003795
 21
432.6057112728
 31
0.0
  0
LINE
  5
C5
330
1F
100
AcDbEntity
  8
0
  6
Continuous
 62
     7
370
    25
100
AcDbLine
 10
201.895004093
 20
207.6057172333
 30
0.0
 11
76.895004093
 21
207.6057172333
 31
0.0
  0
LINE
  5
C6
330
1F
100
AcDbEntity
  8
0
  6
Continuous
 62
     1
370
    25
100
AcDbLine
 10
209.3689422601
 20
340.4458514367
 30
0.0
 11
69.421065926
 21
340.4458514367
 31
0.0
  0
LINE
  5
C7
330
1F
100
AcDbEntity
  8
0
  6
Continuous
 62
     1
370
    25
100
AcDbLine
 10
209.3950043911
 20
340.7676885788
 30
0.0
 11
69.395003795
 21
340.7676885788
 31
0.0
  0
LINE
  5
C8
330
1F
100
AcDbEntity
  8
0
  6
Continuous
 62
     1
370
    25
100
AcDbLine
 10
201.921066224
 20
294.7655781124
 30
0.0
 11
76.8689419621
 21
294.7655781124
 31
0.0
  0
LINE
  5
C9
330
1F
100
AcDbEntity
  8
0
  6
Continuous
 62
     1
370
    25
100
AcDbLine
 10
201.895004093
 20
294.4437391077
 30
0.0
 11
76.895004093
 21
294.4437391077
 31
0.0
  0
ARC
  5
CA
330
1F
100
AcDbEntity
  8
0
  6
Continuous
 62
     7
370
    25
100
AcDbCircle
 10
71.395004093
 20
-126.619631435
 30
0.0
 40
2.000000000000028
100
AcDbArc
 50
170.7397784688
 51
180.0
  0
ARC
  5
CB
330
1F
100
AcDbEntity
  8
0
  6
Continuous
 62
     7
370
    25
100
AcDbCircle
 10
207.395004093
 20
-126.619631435
 30
0.0
 40
2.000000000000018
100
AcDbArc
 50
0.0
 51
9.2602215312
  0
LINE
  5
CC
330
1F
100
AcDbEntity
  8
0
  6
Continuous
 62
     7
370
    25
100
AcDbLine
 10
69.395003795
 20
-126.6196318347
 30
0.0
 11
69.395003795
 21
-218.4576545287
 31
0.0
  0
LINE
  5
CD
330
1F
100
AcDbEntity
  8
0
  6
Continuous
 62
     7
370
    25
100
AcDbLine
 10
209.3950043911
 20
-218.4576545287
 30
0.0
 11
209.3950043911
 21
-126.6196318347
 31
0.0
  0
LINE
  5
CE
330
1F
100
AcDbEntity
  8
0
  6
Continuous
 62
     7
370
    25
100
AcDbLine
 10
209.3689422601
 20
-126.2977946926
 30
0.0
 11
201.921066224
 21
-80.6175213684
 31
0.0
  0
LINE
  5
CF
330
1F
100
AcDbEntity
  8
0
  6
Continuous
 62
     7
370
    25
100
AcDbLine
 10
76.8689419621
 20
-80.6175213684
 30
0.0
 11
69.421065926
 21
-126.2977946926
 31
0.0
  0
ARC
  5
D0
330
1F
100
AcDbEntity
  8
0
  6
Continuous
 62
     7
370
    25
100
AcDbCircle
 10
74.895004093
 20
-80.2956832507
 30
0.0
 40
2.0
100
AcDbArc
 50
350.7397784688
 51
0.0
  0
ARC
  5
D1
330
1F
100
AcDbEntity
  8
0
  6
Continuous
 62
     7
370
    25
100
AcDbCircle
 10
203.895004093
 20
-80.2956832507
 30
0.0
 40
2.00000000000002
100
AcDbArc
 50
180.0
 51
189.2602215312
  0
LINE
  5
D2
330
1F
100
AcDbEntity
  8
0
  6
Continuous
 62
     7
370
    25
100
AcDbLine
 10
76.895004093
 20
6.5423395108
 30
0.0
 11
76.895004093
 21
-80.2956823636
 31
0.0
  0
LINE
  5
D3
330
1F
100
AcDbEntity
  8
0
  6
Continuous
 62
     7
370
    25
100
AcDbLine
 10
201.895004093
 20
-80.2956823636
 30
0.0
 11
201.895004093
 21
6.5423395108
 31
0.0
  0
LINE
  5
D4
330
1F
100
AcDbEntity
  8
0
  6
Continuous
 62
     7
370
    25
100
AcDbLine
 10
69.395003795
 20
-218.4576545287
 30
0.0
 11
209.3950043911
 21
-218.4576545287
 31
0.0
  0
LINE
  5
D5
330
1F
100
AcDbEntity
  8
0
  6
Continuous
 62
     7
370
    25
100
AcDbLine
 10
76.895004093
 20
6.5423395108
 30
0.0
 11
201.895004093
 21
6.5423395108
 31
0.0
  0
LINE
  5
D6
330
1F
100
AcDbEntity
  8
0
  6
Continuous
 62
     1
370
    25
100
AcDbLine
 10
69.421065926
 20
-126.2977946926
 30
0.0
 11
209.3689422601
 21
-126.2977946926
 31
0.0
  0
LINE
  5
D7
330
1F
100
AcDbEntity
  8
0
  6
Continuous
 62
     1
370
    25
100
AcDbLine
 10
69.395003795
 20
-126.6196318347
 30
0.0
 11
209.3950043911
 21
-126.6196318347
 31
0.0
  0
LINE
  5
D8
330
1F
100
AcDbEntity
  8
0
  6
Continuous
 62
     1
370
    25
100
AcDbLine
 10
76.8689419621
 20
-80.6175213684
 30
0.0
 11
201.921066224
 21
-80.6175213684
 31
0.0
  0
LINE
  5
D9
330
1F
100
AcDbEntity
  8
0
  6
Continuous
 62
     1
370
    25
100
AcDbLine
 10
76.895004093
 20
-80.2956823636
 30
0.0
 11
201.895004093
 21
-80.2956823636
 31
0.0
  0
LINE
  5
DA
330
1F
100
AcDbEntity
  8
0
  6
Continuous
 62
     7
370
    25
100
AcDbLine
 10
410.0087613863
 20
-38.2999093682
 30
0.0
 11
345.0694727686
 21
-0.8112560176
 31
0.0
  0
LINE
  5
DB
330
1F
100
AcDbEntity
  8
0
  6
Continuous
 62
     7
370
    25
100
AcDbLine
 10
275.0751635804
 20
-122.0580962152
 30
0.0
 11
340.0144521981
 21
-159.5467495657
 31
0.0
  0
LINE
  5
DC
330
1F
100
AcDbEntity
  8
0
  6
Continuous
 62
     7
370
    25
100
AcDbLine
 10
344.5226411168
 20
-161.5803361612
 30
0.0
 11
380.0928743126
 21
-173.5721164262
 31
0.0
  0
LINE
  5
DD
330
1F
100
AcDbEntity
  8
0
  6
Continuous
 62
     7
370
    25
100
AcDbLine
 10
442.1968983329
 20
-65.9931354092
 30
0.0
 11
414.0242641826
 21
-41.1869476546
 31
0.0
  0
LINE
  5
DE
330
1F
100
AcDbEntity
  8
0
  6
Continuous
 62
     7
370
    25
100
AcDbLine
 10
500.4187998444
 20
-99.1525332013
 30
0.0
 11
440.7082255454
 21
-64.6823523769
 31
0.0
  0
LINE
  5
DF
330
1F
100
AcDbEntity
  8
0
  6
Continuous
 62
     7
370
    25
100
AcDbLine
 10
378.2133053102
 20
-172.938458501
 30
0.0
 11
437.9238796093
 21
-207.4086393254
 31
0.0
  0
LWPOLYLINE
  5
E0
330
1F
100
AcDbEntity
  8
0
  6
Continuous
 62
     7
370
    25
100
AcDbPolyline
 90
      117
 70
   128
 43
0.0
 10
260.5748432807
 20
-90.0089601518
 10
260.647435959
 20
-86.8725892909
 10
260.864997991
 20
-83.6616059082
 10
261.2268971741
 20
-80.3854250454
 10
261.7320693003
 20
-77.053657903
 10
262.3790286933
 20
-73.6760793315
 10
263.1658787449
 20
-70.2625964636
 10
264.0903171834
 20
-66.8232160144
 10
265.1496255372
 20
-63.3680336342
 10
266.3407033786
 20
-59.9071783978
 10
267.6600525193
 20
-56.4508036774
 10
269.1038033518
 20
-53.0090476013
 10
270.6677227519
 20
-49.5920041565
 10
272.3472219815
 20
-46.2096988554
 10
274.1373751277
 20
-42.8720507136
 10
276.0329322736
 20
-39.5888494378
 10
278.0283326695
 20
-36.3697265291
 10
280.1177231718
 20
-33.2241233457
 10
282.2949766823
 20
-30.1612652484
 10
284.5537053193
 20
-27.1901387883
 10
286.8872841251
 20
-24.3194567275
 10
289.2888681881
 20
-21.5576390293
 10
291.7514137162
 20
-18.9127915672
 10
294.2676991103
 20
-16.3926635409
 10
296.8303407694
 20
-14.0046566034
 10
299.4318240422
 20
-11.7557674488
 10
302.0645177148
 20
-9.6525916162
 10
304.7206996944
 20
-7.7013025793
 10
307.3925789055
 20
-5.9076269381
 10
310.0723181745
 20
-4.276819041
 10
312.7520574436
 20
-2.8136658348
 10
315.4239366547
 20
-1.5224554025
 10
318.0801186343
 20
-0.4069820037
 10
320.7128123069
 20
0.5294855775
 10
323.3142955797
 20
1.284205076
 10
325.8769372388
 20
1.8549612191
 10
328.3932226329
 20
2.240074469
 10
330.855768161
 20
2.4384215546
 10
333.2573522239
 20
2.4494137946
 10
335.5909310298
 20
2.2730244733
 10
337.8496596668
 20
1.9097705873
 10
340.0269131773
 20
1.3607158855
 10
342.1163036796
 20
0.6274716275
 10
344.1117040755
 20
-0.2878110227
 10
346.0072612214
 20
-1.3824486026
 10
347.7974143676
 20
-2.6532299164
 10
349.4769135972
 20
-4.0964266821
 10
351.0408329973
 20
-5.7078072221
 10
352.4845838298
 20
-7.4826440685
 10
353.8039329705
 20
-9.4157306951
 10
354.9950108119
 20
-11.5013967275
 10
356.0543191657
 20
-13.7335277158
 10
356.9787576042
 20
-16.1055742627
 10
357.7656076558
 20
-18.6105793986
 10
358.4125670488
 20
-21.2411945545
 10
358.917739175
 20
-23.9897023749
 10
359.2796383581
 20
-26.8480433349
 10
359.4972003901
 20
-29.8078349422
 10
359.5697930683
 20
-32.8603920809
 10
359.4972003901
 20
-35.9967629419
 10
359.2796383581
 20
-39.2077463246
 10
358.917739175
 20
-42.4839271874
 10
358.4125670488
 20
-45.8156943298
 10
357.7656076558
 20
-49.1932729013
 10
356.9787576042
 20
-52.6067557692
 10
356.0543191657
 20
-56.0461362183
 10
354.9950108119
 20
-59.5013185985
 10
353.8039329705
 20
-62.9621738349
 10
352.4845838298
 20
-66.4185485553
 10
351.0408329973
 20
-69.8603046315
 10
349.4769135972
 20
-73.2773480763
 10
347.7974143676
 20
-76.6596533774
 10
346.0072612214
 20
-79.9973015192
 10
344.1117040755
 20
-83.280502795
 10
342.1163036796
 20
-86.4996257036
 10
340.0269131773
 20
-89.645228887
 10
337.8496596668
 20
-92.7080869843
 10
335.5909310298
 20
-95.6792134445
 10
333.2573522239
 20
-98.5498955053
 10
330.855768161
 20
-101.3117132035
 10
328.3932226329
 20
-103.9565606656
 10
325.8769372388
 20
-106.4766886919
 10
323.3142955797
 20
-108.8646956294
 10
320.7128123069
 20
-111.113584784
 10
318.0801186343
 20
-113.2167606165
 10
315.4239366547
 20
-115.1680496535
 10
312.7520574436
 20
-116.9617252947
 10
310.0723181745
 20
-118.5925331917
 10
307.3925789055
 20
-120.0556863979
 10
304.7206996944
 20
-121.3468968302
 10
302.0645177148
 20
-122.462370229
 10
299.4318240422
 20
-123.3988378102
 10
296.8303407694
 20
-124.1535573088
 10
294.2676991103
 20
-124.7243134518
 10
291.7514137162
 20
-125.1094267018
 10
289.2888681881
 20
-125.3077737873
 10
286.8872841251
 20
-125.3187660273
 10
284.5537053193
 20
-125.142376706
 10
282.2949766823
 20
-124.7791228201
 10
280.1177231718
 20
-124.2300681182
 10
278.0283326695
 20
-123.4968238602
 10
276.0329322736
 20
-122.5815412101
 10
274.1373751277
 20
-121.4869036301
 10
272.3472219815
 20
-120.2161223164
 10
270.6677227519
 20
-118.7729255507
 10
269.1038033518
 20
-117.1615450107
 10
267.6600525193
 20
-115.3867081643
 10
266.3407033786
 20
-113.4536215376
 10
265.1496255372
 20
-111.3679555052
 10
264.0903171834
 20
-109.1358245169
 10
263.1658787449
 20
-106.76377797
 10
262.3790286933
 20
-104.2587728342
 10
261.7320693003
 20
-101.6281576783
 10
261.2268971741
 20
-98.8796498578
 10
260.864997991
 20
-96.0213088978
 10
260.647435959
 20
-93.0615172905
 10
260.5748432807
 20
-90.0089601518
  0
LWPOLYLINE
  5
E1
330
1F
100
AcDbEntity
  8
0
  6
Continuous
 62
     7
370
    25
100
AcDbPolyline
 90
      106
 70
   128
 43
0.0
 10
269.5550986347
 20
-84.8247690846
 10
269.6276201901
 20
-81.9847990852
 10
269.8449214385
 20
-79.0712663652
 10
270.2062279316
 20
-76.0945975588
 10
270.7102436537
 20
-73.0654511922
 10
271.355166827
 20
-69.9946690157
 10
272.1386846434
 20
-66.8932463454
 10
273.0579969715
 20
-63.7722803533
 10
274.1098110887
 20
-60.6429480141
 10
275.2903601206
 20
-57.5164505928
 10
276.5954214797
 20
-54.4039771441
 10
278.0203194999
 20
-51.3166725735
 10
279.5599570469
 20
-48.2655889702
 10
281.208820786
 20
-45.261647585
 10
282.9610075242
 20
-42.3155992884
 10
284.8102452837
 20
-39.4379941539
 10
286.7499170091
 20
-36.6391312702
 10
288.7730737389
 20
-33.9290298441
 10
290.872478069
 20
-31.3173889008
 10
293.0406120552
 20
-28.8135644702
 10
295.269715409
 20
-26.426514077
 10
297.5518092051
 20
-24.1647800127
 10
299.8787222235
 20
-22.0364650032
 10
302.2421258515
 20
-20.0491877247
 10
304.633559768
 20
-18.2100558104
 10
307.044462565
 20
-16.5256603393
 10
309.4662045931
 20
-15.0020264573
 10
311.8901163606
 20
-13.6446061073
 10
314.3075206383
 20
-12.4582655804
 10
316.7097645629
 20
-11.4472456888
 10
319.0882475431
 20
-10.6151699917
 10
321.434456574
 20
-9.965012241
 10
323.7399906034
 20
-9.4991066496
 10
325.9965987271
 20
-9.2191136745
 10
328.1962032383
 20
-9.126040171
 10
330.3309279444
 20
-9.2202169621
 10
332.3931310952
 20
-9.5013072059
 10
334.3754317238
 20
-9.9683094408
 10
336.2707359886
 20
-10.6195423782
 10
338.072255613
 20
-11.4526829273
 10
339.7735421291
 20
-12.4647464268
 10
341.3685053173
 20
-13.65210946
 10
342.8514369138
 20
-15.0105205036
 10
344.2170264157
 20
-16.5351212224
 10
345.4603900569
 20
-18.2204464719
 10
346.5770708082
 20
-20.0604699259
 10
347.5630752557
 20
-22.0486025591
 10
348.4148709667
 20
-24.1777261074
 10
349.1294128312
 20
-26.4402196865
 10
349.7041377942
 20
-28.827985647
 10
350.136993831
 20
-31.3324731516
 10
350.4264267764
 20
-33.9447199994
 10
350.5714013986
 20
-36.6553744908
 10
350.5714013986
 20
-39.45473155
 10
350.4264267764
 20
-42.3327701773
 10
350.136993831
 20
-45.2791891908
 10
349.7041377942
 20
-48.2834416376
 10
349.1294128312
 20
-51.3347709161
 10
348.4148709667
 20
-54.4222569716
 10
347.5630752557
 20
-57.5348429142
 10
346.5770708082
 20
-60.6613920506
 10
345.4603900569
 20
-63.7907076566
 10
344.2170264157
 20
-66.9115900096
 10
342.8514369138
 20
-70.0128668068
 10
341.3685053173
 20
-73.0834342275
 10
339.7735421291
 20
-76.1123025602
 10
338.072255613
 20
-79.0886296606
 10
336.2707359886
 20
-82.0017604943
 10
334.3754317238
 20
-84.8412651571
 10
332.3931310952
 20
-87.5969829811
 10
330.3309279444
 20
-90.2590423025
 10
328.1962032383
 20
-92.8179197767
 10
325.9965987271
 20
-95.2644555847
 10
323.7399906034
 20
-97.5898868912
 10
321.434456574
 20
-99.7858942297
 10
319.0882475431
 20
-101.8446117661
 10
316.7097645629
 20
-103.7586740647
 10
314.3075206383
 20
-105.5212259713
 10
311.8901163606
 20
-107.1259610137
 10
309.4662045931
 20
-108.5671296209
 10
307.044462565
 20
-109.8395795681
 10
304.633559768
 20
-110.9387532166
 10
302.2421258515
 20
-111.8607121308
 10
299.8787222235
 20
-112.6021625987
 10
297.5518092051
 20
-113.1604441742
 10
295.269715409
 20
-113.5335595226
 10
293.0406120552
 20
-113.7201770797
 10
290.872478069
 20
-113.7196268659
 10
288.7730737389
 20
-113.5319065674
 10
286.7499170091
 20
-113.1576921808
 10
284.8102452837
 20
-112.5983266022
 10
282.9610075242
 20
-111.8558059383
 10
281.208820786
 20
-110.9327893882
 10
279.5599570469
 20
-109.8325855539
 10
278.0203194999
 20
-108.5591296245
 10
276.5954214797
 20
-107.11697729
 10
275.2903601206
 20
-105.5112956136
 10
274.1098110887
 20
-103.7478310915
 10
273.0579969715
 20
-101.8328974829
 10
272.1386846434
 20
-99.773346912
 10
271.355166827
 20
-97.5765546568
 10
270.7102436537
 20
-95.2503849267
 10
270.2062279316
 20
-92.8031627263
 10
269.8449214385
 20
-90.2436495173
 10
269.6276201901
 20
-87.5810074784
 10
269.5550986347
 20
-84.8247690846
  0
LWPOLYLINE
  5
E2
330
1F
100
AcDbEntity
  8
0
  6
Continuous
 62
     7
370
    25
100
AcDbPolyline
 90
        3
 70
   128
 43
0.0
 10
410.0087613863
 20
-38.2999093682
 10
410.9465498391
 20
-38.8711019532
 10
412.3285581727
 20
-39.82968712
  0
LWPOLYLINE
  5
E3
330
1F
100
AcDbEntity
  8
0
  6
Continuous
 62
     7
370
    25
100
AcDbPolyline
 90
        3
 70
   128
 43
0.0
 10
342.6209292139
 20
-160.8423727122
 10
340.9722208913
 20
-160.0701945607
 10
340.0144521981
 20
-159.5467495657
  0
ARC
  5
E4
330
1F
100
AcDbEntity
  8
0
  6
Continuous
 62
     7
370
    25
100
AcDbCircle
 10
397.8276527727
 20
-59.6120789835
 30
0.0
 40
24.53101818132716
100
AcDbArc
 50
41.3999414791
 51
54.5285956232
  0
ARC
  5
E5
330
1F
100
AcDbEntity
  8
0
  6
Continuous
 62
     7
370
    25
100
AcDbCircle
 10
352.3815869015
 20
-138.3332710973
 30
0.0
 40
24.53862392418795
100
AcDbArc
 50
245.4774725106
 51
258.7634358468
  0
ARC
  5
E6
330
1F
100
AcDbEntity
  8
0
  6
Continuous
 62
     7
370
    25
100
AcDbCircle
 10
427.4501586324
 20
-82.7210022065
 30
0.0
 40
22.29995200400197
100
AcDbArc
 50
41.8522473478
 51
48.601654912
  0
LWPOLYLINE
  5
E7
330
1F
100
AcDbEntity
  8
0
  6
Continuous
 62
     7
370
    25
100
AcDbPolyline
 90
        3
 70
   128
 43
0.0
 10
382.2523892683
 20
-174.1795304278
 10
380.8361840355
 20
-173.807982902
 10
380.0928743126
 20
-173.5721164262
  0
LWPOLYLINE
  5
E8
330
1F
100
AcDbEntity
  8
0
  6
Continuous
 62
     7
370
    25
100
AcDbPolyline
 90
       57
 70
   128
 43
0.0
 10
500.4187998444
 20
-99.1525332013
 10
500.6456974033
 20
-99.2854347355
 10
502.3807751552
 20
-100.4372318993
 10
504.0055361653
 20
-101.7645685282
 10
505.5145803687
 20
-103.2630364727
 10
506.9028949244
 20
-104.9276572724
 10
508.1658700211
 20
-106.7529034503
 10
509.299309413
 20
-108.7327091608
 10
510.2994462257
 20
-110.8604990882
 10
511.1629613947
 20
-113.1292021371
 10
511.886983666
 20
-115.5312864137
 10
512.4691080351
 20
-118.0587691132
 10
512.9074036495
 20
-120.7032545442
 10
513.2004111745
 20
-123.4559596036
 10
513.3471585985
 20
-126.3077387783
 10
513.3471585985
 20
-129.2491189365
 10
513.2004111745
 20
-132.2703290806
 10
512.9074036495
 20
-135.3613334275
 10
512.4691080351
 20
-138.5118642034
 10
511.886983666
 20
-141.7114533932
 10
511.1629613947
 20
-144.9494759908
 10
510.2994462257
 20
-148.2151724322
 10
509.299309413
 20
-151.4976957443
 10
508.1658700211
 20
-154.7861427215
 10
506.9028949244
 20
-158.0695889074
 10
505.5145803687
 20
-161.3371235742
 10
504.0055361653
 20
-164.5778968699
 10
502.3807751552
 20
-167.7811426312
 10
500.6456974033
 20
-170.9362179263
 10
498.8060664912
 20
-174.0326441173
 10
496.8679884434
 20
-177.0601342351
 10
494.8379064596
 20
-180.0086294813
 10
492.7225640353
 20
-182.8683357265
 10
490.5289852065
 20
-185.6297562088
 10
488.2644600607
 20
-188.2837151066
 10
485.9365078591
 20
-190.8214001209
 10
483.5528638656
 20
-193.2343761627
 10
481.1214464194
 20
-195.5146286961
 10
478.6503319101
 20
-197.6545842686
 10
476.1477284367
 20
-199.6471348433
 10
473.6219504528
 20
-201.485661561
 10
471.08138798
 20
-203.1640525132
 10
468.5344805956
 20
-204.6767390516
 10
465.9896886207
 20
-206.0186911279
 10
463.4554657913
 20
-207.1854513216
 10
460.9402307757
 20
-208.1731482407
 10
458.452338528
 20
-208.9784948079
 10
456.0000531234
 20
-209.5988191517
 10
453.5915227329
 20
-210.0320608021
 10
451.2347460383
 20
-210.2767779115
 10
448.9375531336
 20
-210.3321613217
 10
446.7075752327
 20
-210.1980246747
 10
444.5522196442
 20
-209.8748127761
 10
442.4786447468
 20
-209.3636038734
 10
440.4937415504
 20
-208.6660898827
 10
438.6041034025
 20
-207.7845908345
 10
437.9238796093
 20
-207.4086393254
  0
LWPOLYLINE
  5
E9
330
1F
100
AcDbEntity
  8
0
  6
Continuous
 62
     1
370
    25
100
AcDbPolyline
 90
       58
 70
   128
 43
0.0
 10
412.3285581727
 20
-39.82968712
 10
412.7367029853
 20
-40.1418832669
 10
414.4162022149
 20
-41.5850800327
 10
415.980121615
 20
-43.1964605727
 10
417.4238724474
 20
-44.9712974191
 10
418.7432215882
 20
-46.9043840457
 10
419.9342994296
 20
-48.9900500781
 10
420.9936077834
 20
-51.2221810664
 10
421.9180462219
 20
-53.5942276133
 10
422.7048962735
 20
-56.0992327492
 10
423.3518556665
 20
-58.729847905
 10
423.8570277927
 20
-61.4783557255
 10
424.2189269758
 20
-64.3366966855
 10
424.4364890078
 20
-67.2964882928
 10
424.509081686
 20
-70.3490454315
 10
424.4364890078
 20
-73.4854162924
 10
424.2189269758
 20
-76.6963996751
 10
423.8570277927
 20
-79.9725805379
 10
423.3518556665
 20
-83.3043476804
 10
422.7048962735
 20
-86.6819262518
 10
421.9180462219
 20
-90.0954091197
 10
420.9936077834
 20
-93.5347895689
 10
419.9342994296
 20
-96.9899719491
 10
418.7432215882
 20
-100.4508271855
 10
417.4238724474
 20
-103.9072019059
 10
415.980121615
 20
-107.3489579821
 10
414.4162022149
 20
-110.7660014268
 10
412.7367029853
 20
-114.148306728
 10
410.9465498391
 20
-117.4859548698
 10
409.0509926932
 20
-120.7691561456
 10
407.0555922973
 20
-123.9882790542
 10
404.966201795
 20
-127.1338822376
 10
402.7889482845
 20
-130.1967403349
 10
400.5302196474
 20
-133.167866795
 10
398.1966408416
 20
-136.0385488559
 10
395.7950567786
 20
-138.8003665541
 10
393.3325112506
 20
-141.4452140162
 10
390.8162258565
 20
-143.9653420424
 10
388.2535841973
 20
-146.3533489799
 10
385.6521009246
 20
-148.6022381345
 10
383.019407252
 20
-150.7054139671
 10
380.3632252724
 20
-152.6567030041
 10
377.6913460613
 20
-154.4503786452
 10
375.0116067922
 20
-156.0811865423
 10
372.3318675231
 20
-157.5443397485
 10
369.659988312
 20
-158.8355501808
 10
367.0038063325
 20
-159.9510235796
 10
364.3711126599
 20
-160.8874911608
 10
361.7696293871
 20
-161.6422106593
 10
359.206987728
 20
-162.2129668024
 10
356.6907023339
 20
-162.5980800523
 10
354.2281568058
 20
-162.7964271379
 10
351.8265727428
 20
-162.8074193779
 10
349.492993937
 20
-162.6310300566
 10
347.2342653
 20
-162.2677761707
 10
345.0570117895
 20
-161.7187214688
 10
342.9676212872
 20
-160.9854772108
 10
342.6209292139
 20
-160.8423727122
  0
LWPOLYLINE
  5
EA
330
1F
100
AcDbEntity
  8
0
  6
Continuous
 62
     1
370
    25
100
AcDbPolyline
 90
       52
 70
   128
 43
0.0
 10
416.2286576294
 20
-43.3894443862
 10
417.6356537758
 20
-45.1227610727
 10
418.9545103252
 20
-47.0551282552
 10
420.1451456247
 20
-49.1400185739
 10
421.2040588518
 20
-51.3713190997
 10
422.1281548472
 20
-53.7424804356
 10
422.9147151391
 20
-56.2465516959
 10
423.5614321878
 20
-58.8761881132
 10
424.0664146532
 20
-61.6236730933
 10
424.428176859
 20
-64.4809509134
 10
424.6456598657
 20
-67.4396392717
 10
424.7182262021
 20
-70.4910593258
 10
424.6456598657
 20
-73.6262626886
 10
424.428176859
 20
-76.8360515816
 10
424.0664146532
 20
-80.1110111538
 10
423.5614321878
 20
-83.4415364782
 10
422.9147151391
 20
-86.8178565063
 10
422.1281548472
 20
-90.2300709493
 10
421.2040588518
 20
-93.6681708111
 10
420.1451456247
 20
-97.1220665251
 10
418.9545103252
 20
-100.5816350999
 10
417.6356537758
 20
-104.0367216423
 10
416.1924403156
 20
-107.4771971494
 10
414.6291030689
 20
-110.8929676339
 10
412.9502307737
 20
-114.2740136673
 10
411.1607440745
 20
-117.6104192753
 10
409.2658928883
 20
-120.892397793
 10
407.2712353306
 20
-124.1103222818
 10
405.1826219108
 20
-127.2547529044
 10
403.0061797272
 20
-130.3164703834
 10
400.7482913929
 20
-133.2864912094
 10
398.4155818658
 20
-136.1561026201
 10
396.0148907892
 20
-138.9168937771
 10
393.5532619551
 20
-141.5607557653
 10
391.0379143284
 20
-144.0799469893
 10
388.4762262417
 20
-146.4670688375
 10
385.8757116879
 20
-148.7151189122
 10
383.2439985881
 20
-150.8175096588
 10
380.5888057424
 20
-152.7680695047
 10
377.9179214274
 20
-154.561079549
 10
375.2391800178
 20
-156.1912809755
 10
372.5604386083
 20
-157.6538885482
 10
369.8895542933
 20
-158.9446158947
 10
367.2343614476
 20
-160.059676455
 10
364.6026483478
 20
-160.9957969769
 10
362.002133794
 20
-161.7502370962
 10
359.4404457073
 20
-162.3207773572
 10
356.9250980806
 20
-162.7057446863
 10
354.4634692465
 20
-162.9040188534
 10
352.0627781699
 20
-162.9150066145
 10
349.7300686428
 20
-162.7386842955
 10
347.5999827241
 20
-162.4015141902
  0
LWPOLYLINE
  5
EB
330
1F
100
AcDbEntity
  8
0
  6
Continuous
 62
     1
370
    25
100
AcDbPolyline
 90
       50
 70
   128
 43
0.0
 10
444.0606767551
 20
-67.8422069905
 10
445.2873001949
 20
-69.3284871121
 10
446.5508021271
 20
-71.1544922814
 10
447.6847156711
 20
-73.1351223782
 10
448.6852686839
 20
-75.2637990444
 10
449.5491447353
 20
-77.5334496639
 10
450.2734673029
 20
-79.9365362587
 10
450.8558366505
 20
-82.4650714619
 10
451.2943140232
 20
-85.1106603416
 10
451.5874427204
 20
-87.8645137113
 10
451.7342533647
 20
-90.7174811153
 10
451.7342533647
 20
-93.6600879001
 10
451.5874427204
 20
-96.682559266
 10
451.2943140232
 20
-99.7748518256
 10
450.8558366505
 20
-102.9266959038
 10
450.2734673029
 20
-106.1276204436
 10
449.5491447353
 20
-109.3669920741
 10
448.6852686839
 20
-112.6340527521
 10
447.6847156711
 20
-115.9179433374
 10
446.5508021271
 20
-119.2077621452
 10
445.2873001949
 20
-122.4925755939
 10
443.8984061199
 20
-125.7614759977
 10
442.3887349822
 20
-129.0035998166
 10
440.7632969884
 20
-132.2081824082
 10
439.0274948375
 20
-135.3645732361
 10
437.1870947454
 20
-138.4622891
 10
435.2482106392
 20
-141.4910415106
 10
433.2172830841
 20
-144.4407671064
 10
431.1010582103
 20
-147.3016671955
 10
428.9065640045
 20
-150.0642396932
 10
426.6410931888
 20
-152.7193042153
 10
424.3121716098
 20
-155.2580446611
 10
421.9275332141
 20
-157.6720297439
 10
419.4951016093
 20
-159.9532327608
 10
417.0229558193
 20
-162.0940817804
 10
414.5193092114
 20
-164.0874626827
 10
411.9924778856
 20
-165.926755658
 10
409.4508559793
 20
-167.6058494637
 10
406.9028863626
 20
-169.119164425
 10
404.3570333079
 20
-170.4616773382
 10
401.8217538438
 20
-171.6289227982
 10
399.3054697668
 20
-172.6170306491
 10
396.816539653
 20
-173.4227147644
 10
394.3632321872
 20
-174.0432975697
 10
391.9536968579
 20
-174.4767178346
 10
389.5959376148
 20
-174.7215397956
 10
387.2977858693
 20
-174.7769444088
 10
385.0668767865
 20
-174.6427521607
 10
382.9106229433
 20
-174.3194078572
 10
382.2523892683
 20
-174.1795304278
  0
LWPOLYLINE
  5
EC
330
1F
100
AcDbEntity
  8
0
  6
Continuous
 62
     1
370
    25
100
AcDbPolyline
 90
       53
 70
   128
 43
0.0
 10
441.5977440028
 20
-65.4655763774
 10
442.6017820331
 20
-66.3169357917
 10
444.1108262364
 20
-67.8154037362
 10
445.4991407922
 20
-69.4800245359
 10
446.7621158889
 20
-71.3052707139
 10
447.8955552808
 20
-73.2850764244
 10
448.8956920934
 20
-75.4128663518
 10
449.7592072624
 20
-77.6815694007
 10
450.4832295337
 20
-80.0836536772
 10
451.0653539028
 20
-82.6111363767
 10
451.5036495172
 20
-85.2556218077
 10
451.7966570422
 20
-88.0083268671
 10
451.9434044662
 20
-90.8601060419
 10
451.9434044662
 20
-93.8014862001
 10
451.7966570422
 20
-96.8226963441
 10
451.5036495172
 20
-99.913700691
 10
451.0653539028
 20
-103.0642314669
 10
450.4832295337
 20
-106.2638206568
 10
449.7592072624
 20
-109.5018432543
 10
448.8956920934
 20
-112.7675396958
 10
447.8955552808
 20
-116.0500630079
 10
446.7621158889
 20
-119.3385099851
 10
445.4991407922
 20
-122.621956171
 10
444.1108262364
 20
-125.8894908377
 10
442.6017820331
 20
-129.1302641334
 10
440.977021023
 20
-132.3335098947
 10
439.2419432711
 20
-135.4885851898
 10
437.4023123589
 20
-138.5850113808
 10
435.4642343112
 20
-141.6125014986
 10
433.4341523273
 20
-144.5609967448
 10
431.3188099031
 20
-147.42070299
 10
429.1252310742
 20
-150.1821234724
 10
426.8607059284
 20
-152.8360823701
 10
424.5327537269
 20
-155.3737673844
 10
422.1491097334
 20
-157.7867434262
 10
419.7176922871
 20
-160.0669959596
 10
417.2465777779
 20
-162.2069515322
 10
414.7439743045
 20
-164.1995021069
 10
412.2181963206
 20
-166.0380288245
 10
409.6776338478
 20
-167.7164197767
 10
407.1307264634
 20
-169.2291063151
 10
404.5859344885
 20
-170.5710583914
 10
402.0517116591
 20
-171.7378185852
 10
399.5364766434
 20
-172.7255155043
 10
397.0485843958
 20
-173.5308620714
 10
394.5962989911
 20
-174.1511864153
 10
392.1877686007
 20
-174.5844280657
 10
389.830991906
 20
-174.8291451751
 10
387.5337990014
 20
-174.8845285852
 10
385.3038211005
 20
-174.7503919383
 10
383.1484655119
 20
-174.4271800396
 10
381.0748906146
 20
-173.9159711369
 10
379.3363936996
 20
-173.3170849276
  0
ENDSEC
  0
SECTION
  2
OBJECTS
  0
DICTIONARY
  5
C
330
0
100
AcDbDictionary
281
     1
  3
ACAD_GROUP
350
D
  3
ACAD_LAYOUT
350
1A
  3
ACAD_MLINESTYLE
350
17
  3
ACAD_PLOTSETTINGS
350
19
  3
ACAD_PLOTSTYLENAME
350
E
  3
ACAD_SCALELIST
350
47
  0
DICTIONARY
  5
D
102
{ACAD_REACTORS
330
C
102
}
330
C
100
AcDbDictionary
281
     1
  0
DICTIONARY
  5
1A
102
{ACAD_REACTORS
330
C
102
}
330
C
100
AcDbDictionary
281
     1
  3
Layout1
350
1E
  3
Layout2
350
26
  3
Model
350
22
  0
DICTIONARY
  5
17
102
{ACAD_REACTORS
330
C
102
}
330
C
100
AcDbDictionary
281
     1
  3
Standard
350
18
  0
DICTIONARY
  5
19
102
{ACAD_REACTORS
330
C
102
}
330
C
100
AcDbDictionary
281
     1
  0
ACDBDICTIONARYWDFLT
  5
E
102
{ACAD_REACTORS
330
C
102
}
330
C
100
AcDbDictionary
281
     1
  3
Normal
350
F
100
AcDbDictionaryWithDefault
340
F
  0
DICTIONARY
  5
47
102
{ACAD_REACTORS
330
C
102
}
330
C
100
AcDbDictionary
281
     1
  3
A0
350
48
  3
A1
350
49
  3
A2
350
4A
  3
A3
350
4B
  3
A4
350
4C
  3
A5
350
4D
  3
A6
350
4E
  3
A7
350
4F
  3
A8
350
50
  3
A9
350
51
  3
B0
350
52
  3
B1
350
53
  3
B2
350
54
  3
B3
350
55
  3
B4
350
56
  3
B5
350
57
  3
B6
350
58
  3
B7
350
59
  3
B8
350
5A
  3
B9
350
5B
  3
C0
350
5C
  3
C1
350
5D
  3
C2
350
5E
  3
C3
350
5F
  3
C4
350
60
  3
C5
350
61
  3
C6
350
62
  3
C7
350
63
  3
C8
350
64
  3
C9
350
65
  3
D0
350
66
  3
D1
350
67
  3
D2
350
68
  0
LAYOUT
  5
1E
102
{ACAD_REACTORS
330
1A
102
}
330
1A
100
AcDbPlotSettings
  1

  2
none_device
  4

  6

 40
0.0
 41
0.0
 42
0.0
 43
0.0
 44
0.0
 45
0.0
 46
0.0
 47
0.0
 48
0.0
 49
0.0
140
0.0
141
0.0
142
1.0
143
1.0
 70
   688
 72
     1
 73
     0
 74
     5
  7

 75
    16
147
1.0
148
0.0
149
0.0
100
AcDbLayout
  1
Layout1
 70
     1
 71
     1
 10
0.0
 20
0.0
 11
420.0
 21
297.0
 12
0.0
 22
0.0
 32
0.0
 14
1.0000000000E+20
 24
1.0000000000E+20
 34
1.0000000000E+20
 15
-1.0000000000E+20
 25
-1.0000000000E+20
 35
-1.0000000000E+20
146
0.0
 13
0.0
 23
0.0
 33
0.0
 16
1.0
 26
0.0
 36
0.0
 17
0.0
 27
1.0
 37
0.0
 76
     0
330
1B
  0
LAYOUT
  5
26
102
{ACAD_REACTORS
330
1A
102
}
330
1A
100
AcDbPlotSettings
  1

  2
none_device
  4

  6

 40
0.0
 41
0.0
 42
0.0
 43
0.0
 44
0.0
 45
0.0
 46
0.0
 47
0.0
 48
0.0
 49
0.0
140
0.0
141
0.0
142
1.0
143
1.0
 70
   688
 72
     1
 73
     0
 74
     5
  7

 75
    16
147
1.0
148
0.0
149
0.0
100
AcDbLayout
  1
Layout2
 70
     1
 71
     2
 10
0.0
 20
0.0
 11
0.0
 21
0.0
 12
0.0
 22
0.0
 32
0.0
 14
0.0
 24
0.0
 34
0.0
 15
0.0
 25
0.0
 35
0.0
146
0.0
 13
0.0
 23
0.0
 33
0.0
 16
1.0
 26
0.0
 36
0.0
 17
0.0
 27
1.0
 37
0.0
 76
     0
330
23
  0
LAYOUT
  5
22
102
{ACAD_REACTORS
330
1A
102
}
330
1A
100
AcDbPlotSettings
  1

  2
none_device
  4
Letter_(8.50_x_11.00_Inches)
  6

 40
6.35
 41
6.35
 42
6.35000508
 43
6.35000508
 44
215.9
 45
279.4
 46
0.0
 47
0.0
 48
0.0
 49
0.0
140
0.0
141
0.0
142
1.0
143
1.0
 70
  1712
 72
     1
 73
     0
 74
     0
  7

 75
     0
147
1.0
148
0.0
149
0.0
100
AcDbLayout
  1
Model
 70
     1
 71
     0
 10
0.0
 20
0.0
 11
279.4
 21
215.9
 12
0.0
 22
0.0
 32
0.0
 14
0.0
 24
0.0
 34
0.0
 15
279.4
 25
215.9
 35
0.0
146
0.0
 13
0.0
 23
0.0
 33
0.0
 16
1.0
 26
0.0
 36
0.0
 17
0.0
 27
1.0
 37
0.0
 76
     0
330
1F
331
29
  0
MLINESTYLE
  5
18
102
{ACAD_REACTORS
330
17
102
}
330
17
100
AcDbMlineStyle
  2
Standard
 70
     0
  3

 62
   256
 51
90.0
 52
90.0
 71
     2
 49
0.5
 62
   256
  6
BYLAYER
 49
-0.5
 62
   256
  6
BYLAYER
  0
ACDBPLACEHOLDER
  5
F
102
{ACAD_REACTORS
330
E
102
}
330
E
  0
SCALE
  5
48
102
{ACAD_REACTORS
330
47
102
}
330
47
100
AcDbScale
 70
     0
300
1:1
140
1.0
141
1.0
290
     1
  0
SCALE
  5
49
102
{ACAD_REACTORS
330
47
102
}
330
47
100
AcDbScale
 70
     0
300
1:2
140
1.0
141
2.0
290
     0
  0
SCALE
  5
4A
102
{ACAD_REACTORS
330
47
102
}
330
47
100
AcDbScale
 70
     0
300
1:4
140
1.0
141
4.0
290
     0
  0
SCALE
  5
4B
102
{ACAD_REACTORS
330
47
102
}
330
47
100
AcDbScale
 70
     0
300
1:5
140
1.0
141
5.0
290
     0
  0
SCALE
  5
4C
102
{ACAD_REACTORS
330
47
102
}
330
47
100
AcDbScale
 70
     0
300
1:8
140
1.0
141
8.0
290
     0
  0
SCALE
  5
4D
102
{ACAD_REACTORS
330
47
102
}
330
47
100
AcDbScale
 70
     0
300
1:10
140
1.0
141
10.0
290
     0
  0
SCALE
  5
4E
102
{ACAD_REACTORS
330
47
102
}
330
47
100
AcDbScale
 70
     0
300
1:16
140
1.0
141
16.0
290
     0
  0
SCALE
  5
4F
102
{ACAD_REACTORS
330
47
102
}
330
47
100
AcDbScale
 70
     0
300
1:20
140
1.0
141
20.0
290
     0
  0
SCALE
  5
50
102
{ACAD_REACTORS
330
47
102
}
330
47
100
AcDbScale
 70
     0
300
1:30
140
1.0
141
30.0
290
     0
  0
SCALE
  5
51
102
{ACAD_REACTORS
330
47
102
}
330
47
100
AcDbScale
 70
     0
300
1:40
140
1.0
141
40.0
290
     0
  0
SCALE
  5
52
102
{ACAD_REACTORS
330
47
102
}
330
47
100
AcDbScale
 70
     0
300
1:50
140
1.0
141
50.0
290
     0
  0
SCALE
  5
53
102
{ACAD_REACTORS
330
47
102
}
330
47
100
AcDbScale
 70
     0
300
1:100
140
1.0
141
100.0
290
     0
  0
SCALE
  5
54
102
{ACAD_REACTORS
330
47
102
}
330
47
100
AcDbScale
 70
     0
300
2:1
140
2.0
141
1.0
290
     0
  0
SCALE
  5
55
102
{ACAD_REACTORS
330
47
102
}
330
47
100
AcDbScale
 70
     0
300
4:1
140
4.0
141
1.0
290
     0
  0
SCALE
  5
56
102
{ACAD_REACTORS
330
47
102
}
330
47
100
AcDbScale
 70
     0
300
8:1
140
8.0
141
1.0
290
     0
  0
SCALE
  5
57
102
{ACAD_REACTORS
330
47
102
}
330
47
100
AcDbScale
 70
     0
300
10:1
140
10.0
141
1.0
290
     0
  0
SCALE
  5
58
102
{ACAD_REACTORS
330
47
102
}
330
47
100
AcDbScale
 70
     0
300
100:1
140
100.0
141
1.0
290
     0
  0
SCALE
  5
59
102
{ACAD_REACTORS
330
47
102
}
330
47
100
AcDbScale
 70
     0
300
1/128" = 1'-0"
140
0.0078125
141
12.0
290
     0
  0
SCALE
  5
5A
102
{ACAD_REACTORS
330
47
102
}
330
47
100
AcDbScale
 70
     0
300
1/64" = 1'-0"
140
0.015625
141
12.0
290
     0
  0
SCALE
  5
5B
102
{ACAD_REACTORS
330
47
102
}
330
47
100
AcDbScale
 70
     0
300
1/32" = 1'-0"
140
0.03125
141
12.0
290
     0
  0
SCALE
  5
5C
102
{ACAD_REACTORS
330
47
102
}
330
47
100
AcDbScale
 70
     0
300
1/16" = 1'-0"
140
0.0625
141
12.0
290
     0
  0
SCALE
  5
5D
102
{ACAD_REACTORS
330
47
102
}
330
47
100
AcDbScale
 70
     0
300
3/32" = 1'-0"
140
0.09375
141
12.0
290
     0
  0
SCALE
  5
5E
102
{ACAD_REACTORS
330
47
102
}
330
47
100
AcDbScale
 70
     0
300
1/8" = 1'-0"
140
0.125
141
12.0
290
     0
  0
SCALE
  5
5F
102
{ACAD_REACTORS
330
47
102
}
330
47
100
AcDbScale
 70
     0
300
3/16" = 1'-0"
140
0.1875
141
12.0
290
     0
  0
SCALE
  5
60
102
{ACAD_REACTORS
330
47
102
}
330
47
100
AcDbScale
 70
     0
300
1/4" = 1'-0"
140
0.25
141
12.0
290
     0
  0
SCALE
  5
61
102
{ACAD_REACTORS
330
47
102
}
330
47
100
AcDbScale
 70
     0
300
3/8" = 1'-0"
140
0.375
141
12.0
290
     0
  0
SCALE
  5
62
102
{ACAD_REACTORS
330
47
102
}
330
47
100
AcDbScale
 70
     0
300
1/2" = 1'-0"
140
0.5
141
12.0
290
     0
  0
SCALE
  5
63
102
{ACAD_REACTORS
330
47
102
}
330
47
100
AcDbScale
 70
     0
300
3/4" = 1'-0"
140
0.75
141
12.0
290
     0
  0
SCALE
  5
64
102
{ACAD_REACTORS
330
47
102
}
330
47
100
AcDbScale
 70
     0
300
1" = 1'-0"
140
1.0
141
12.0
290
     0
  0
SCALE
  5
65
102
{ACAD_REACTORS
330
47
102
}
330
47
100
AcDbScale
 70
     0
300
1-1/2" = 1'-0"
140
1.5
141
12.0
290
     0
  0
SCALE
  5
66
102
{ACAD_REACTORS
330
47
102
}
330
47
100
AcDbScale
 70
     0
300
3" = 1'-0"
140
3.0
141
12.0
290
     0
  0
SCALE
  5
67
102
{ACAD_REACTORS
330
47
102
}
330
47
100
AcDbScale
 70
     0
300
6" = 1'-0"
140
6.0
141
12.0
290
     0
  0
SCALE
  5
68
102
{ACAD_REACTORS
330
47
102
}
330
47
100
AcDbScale
 70
     0
300
1'-0" = 1'-0"
140
12.0
141
12.0
290
     0
  0
ENDSEC
  0
EOF
